  0
SECTION
  2
HEADER
  9
$ACADVER
  1
AC1015
  9
$ACADMAINTVER
 70
     6
  9
$DWGCODEPAGE
  3
ANSI_1254
  9
$INSBASE
 10
0.0
 20
0.0
 30
0.0
  9
$EXTMIN
 10
0.0
 20
0.0
 30
0.0
  9
$EXTMAX
 10
279.4
 20
215.9
 30
0.0
  9
$LIMMIN
 10
0.0
 20
0.0
  9
$LIMMAX
 10
279.4
 20
215.9
  9
$ORTHOMODE
 70
     0
  9
$REGENMODE
 70
     1
  9
$FILLMODE
 70
     1
  9
$QTEXTMODE
 70
     0
  9
$MIRRTEXT
 70
     1
  9
$LTSCALE
 40
1.0
  9
$ATTMODE
 70
     1
  9
$TEXTSIZE
 40
3.5
  9
$TRACEWID
 40
1.0
  9
$TEXTSTYLE
  7
Standard
  9
$CLAYER
  8
0
  9
$CELTYPE
  6
ByLayer
  9
$CECOLOR
 62
   256
  9
$CELTSCALE
 40
1.0
  9
$DISPSILH
 70
     0
  9
$DIMSCALE
 40
1.0
  9
$DIMASZ
 40
3.5
  9
$DIMEXO
 40
1.0
  9
$DIMDLI
 40
3.75
  9
$DIMRND
 40
0.0
  9
$DIMDLE
 40
0.0
  9
$DIMEXE
 40
1.0
  9
$DIMTP
 40
0.0
  9
$DIMTM
 40
0.0
  9
$DIMTXT
 40
3.5
  9
$DIMCEN
 40
2.5
  9
$DIMTSZ
 40
0.0
  9
$DIMTOL
 70
     0
  9
$DIMLIM
 70
     0
  9
$DIMTIH
 70
     1
  9
$DIMTOH
 70
     1
  9
$DIMSE1
 70
     0
  9
$DIMSE2
 70
     0
  9
$DIMTAD
 70
     1
  9
$DIMZIN
 70
     0
  9
$DIMBLK
  1

  9
$DIMASO
 70
     1
  9
$DIMSHO
 70
     1
  9
$DIMPOST
  1

  9
$DIMAPOST
  1

  9
$DIMALT
 70
     0
  9
$DIMALTD
 70
     3
  9
$DIMALTF
 40
0.0393700787
  9
$DIMLFAC
 40
1.0
  9
$DIMTOFL
 70
     1
  9
$DIMTVP
 40
0.0
  9
$DIMTIX
 70
     0
  9
$DIMSOXD
 70
     0
  9
$DIMSAH
 70
     0
  9
$DIMBLK1
  1

  9
$DIMBLK2
  1

  9
$DIMSTYLE
  2
ISO-25
  9
$DIMCLRD
 70
     0
  9
$DIMCLRE
 70
     0
  9
$DIMCLRT
 70
     0
  9
$DIMTFAC
 40
1.0
  9
$DIMGAP
 40
1.524
  9
$DIMJUST
 70
     0
  9
$DIMSD1
 70
     0
  9
$DIMSD2
 70
     0
  9
$DIMTOLJ
 70
     0
  9
$DIMTZIN
 70
     0
  9
$DIMALTZ
 70
     0
  9
$DIMALTTZ
 70
     0
  9
$DIMUPT
 70
     0
  9
$DIMDEC
 70
     2
  9
$DIMTDEC
 70
     2
  9
$DIMALTU
 70
     2
  9
$DIMALTTD
 70
     3
  9
$DIMTXSTY
  7
Standard
  9
$DIMAUNIT
 70
     0
  9
$DIMADEC
 70
     2
  9
$DIMALTRND
 40
0.0
  9
$DIMAZIN
 70
     0
  9
$DIMDSEP
 70
    44
  9
$DIMATFIT
 70
     3
  9
$DIMFRAC
 70
     0
  9
$DIMLDRBLK
  1

  9
$DIMLUNIT
 70
     2
  9
$DIMLWD
 70
    -2
  9
$DIMLWE
 70
    -2
  9
$DIMTMOVE
 70
     0
  9
$LUNITS
 70
     2
  9
$LUPREC
 70
     2
  9
$SKETCHINC
 40
1.0
  9
$FILLETRAD
 40
10.0
  9
$AUNITS
 70
     0
  9
$AUPREC
 70
     2
  9
$MENU
  1
.
  9
$ELEVATION
 40
0.0
  9
$PELEVATION
 40
0.0
  9
$THICKNESS
 40
0.0
  9
$LIMCHECK
 70
     0
  9
$CHAMFERA
 40
0.0
  9
$CHAMFERB
 40
0.0
  9
$CHAMFERC
 40
0.0
  9
$CHAMFERD
 40
0.0
  9
$SKPOLY
 70
     0
  9
$TDCREATE
 40
2458985.663465625
  9
$TDUCREATE
 40
2458985.538465625
  9
$TDUPDATE
 40
2458985.663465914
  9
$TDUUPDATE
 40
2458985.538465914
  9
$TDINDWG
 40
0.0000000116
  9
$TDUSRTIMER
 40
0.0000000116
  9
$USRTIMER
 70
     1
  9
$ANGBASE
 50
0.0
  9
$ANGDIR
 70
     0
  9
$PDMODE
 70
     0
  9
$PDSIZE
 40
-1.0
  9
$PLINEWID
 40
0.0
  9
$SPLFRAME
 70
     0
  9
$SPLINETYPE
 70
     6
  9
$SPLINESEGS
 70
     8
  9
$HANDSEED
  5
C1
  9
$SURFTAB1
 70
     6
  9
$SURFTAB2
 70
     6
  9
$SURFTYPE
 70
     6
  9
$SURFU
 70
     6
  9
$SURFV
 70
     6
  9
$UCSBASE
  2

  9
$UCSNAME
  2

  9
$UCSORG
 10
0.0
 20
0.0
 30
0.0
  9
$UCSXDIR
 10
1.0
 20
0.0
 30
0.0
  9
$UCSYDIR
 10
0.0
 20
1.0
 30
0.0
  9
$UCSORTHOREF
  2

  9
$UCSORTHOVIEW
 70
     0
  9
$UCSORGTOP
 10
0.0
 20
0.0
 30
0.0
  9
$UCSORGBOTTOM
 10
0.0
 20
0.0
 30
0.0
  9
$UCSORGLEFT
 10
0.0
 20
0.0
 30
0.0
  9
$UCSORGRIGHT
 10
0.0
 20
0.0
 30
0.0
  9
$UCSORGFRONT
 10
0.0
 20
0.0
 30
0.0
  9
$UCSORGBACK
 10
0.0
 20
0.0
 30
0.0
  9
$PUCSBASE
  2

  9
$PUCSNAME
  2

  9
$PUCSORG
 10
0.0
 20
0.0
 30
0.0
  9
$PUCSXDIR
 10
1.0
 20
0.0
 30
0.0
  9
$PUCSYDIR
 10
0.0
 20
1.0
 30
0.0
  9
$PUCSORTHOREF
  2

  9
$PUCSORTHOVIEW
 70
     0
  9
$PUCSORGTOP
 10
0.0
 20
0.0
 30
0.0
  9
$PUCSORGBOTTOM
 10
0.0
 20
0.0
 30
0.0
  9
$PUCSORGLEFT
 10
0.0
 20
0.0
 30
0.0
  9
$PUCSORGRIGHT
 10
0.0
 20
0.0
 30
0.0
  9
$PUCSORGFRONT
 10
0.0
 20
0.0
 30
0.0
  9
$PUCSORGBACK
 10
0.0
 20
0.0
 30
0.0
  9
$USERI1
 70
     0
  9
$USERI2
 70
     0
  9
$USERI3
 70
     0
  9
$USERI4
 70
     0
  9
$USERI5
 70
     0
  9
$USERR1
 40
0.0
  9
$USERR2
 40
0.0
  9
$USERR3
 40
0.0
  9
$USERR4
 40
0.0
  9
$USERR5
 40
0.0
  9
$WORLDVIEW
 70
     1
  9
$SHADEDGE
 70
     3
  9
$SHADEDIF
 70
    70
  9
$TILEMODE
 70
     1
  9
$MAXACTVP
 70
    64
  9
$PINSBASE
 10
0.0
 20
0.0
 30
0.0
  9
$PLIMCHECK
 70
     0
  9
$PEXTMIN
 10
1.0000000000E+20
 20
1.0000000000E+20
 30
1.0000000000E+20
  9
$PEXTMAX
 10
-1.0000000000E+20
 20
-1.0000000000E+20
 30
-1.0000000000E+20
  9
$PLIMMIN
 10
0.0
 20
0.0
  9
$PLIMMAX
 10
420.0
 20
297.0
  9
$UNITMODE
 70
     0
  9
$VISRETAIN
 70
     1
  9
$PLINEGEN
 70
     0
  9
$PSLTSCALE
 70
     1
  9
$TREEDEPTH
 70
  3020
  9
$CMLSTYLE
  2
Standard
  9
$CMLJUST
 70
     0
  9
$CMLSCALE
 40
20.0
  9
$PROXYGRAPHICS
 70
     1
  9
$MEASUREMENT
 70
     1
  9
$CELWEIGHT
370
    -1
  9
$ENDCAPS
280
     0
  9
$JOINSTYLE
280
     0
  9
$LWDISPLAY
290
     1
  9
$INSUNITS
 70
     4
  9
$HYPERLINKBASE
  1

  9
$STYLESHEET
  1

  9
$XEDIT
290
     1
  9
$CEPSNTYPE
380
     0
  9
$PSTYLEMODE
290
     1
  9
$FINGERPRINTGUID
  2
{189d1f66-7e46-4b3b-8ba2-482ada23480b}
  9
$VERSIONGUID
  2
{FAEB1C32-E019-11D5-929B-00C0DF256EC4}
  9
$EXTNAMES
290
     1
  9
$PSVPSCALE
 40
0.0
  9
$OLESTARTUP
290
     0
  0
ENDSEC
  0
SECTION
  2
CLASSES
  0
CLASS
  1
ACDBDICTIONARYWDFLT
  2
AcDbDictionaryWithDefault
  3
ObjectDBX Classes
 90
        0
280
     0
281
     0
  0
CLASS
  1
VISUALSTYLE
  2
AcDbVisualStyle
  3
ObjectDBX Classes
 90
     4095
280
     0
281
     0
  0
CLASS
  1
MATERIAL
  2
AcDbMaterial
  3
ObjectDBX Classes
 90
     1153
280
     0
281
     0
  0
CLASS
  1
SCALE
  2
AcDbScale
  3
ObjectDBX Classes
 90
     1153
280
     0
281
     0
  0
CLASS
  1
TABLESTYLE
  2
AcDbTableStyle
  3
ObjectDBX Classes
 90
     4095
280
     0
281
     0
  0
CLASS
  1
MLEADERSTYLE
  2
AcDbMLeaderStyle
  3
ACDB_MLEADERSTYLE_CLASS
 90
     4095
280
     0
281
     0
  0
CLASS
  1
SUN
  2
AcDbSun
  3
SCENEOE
 90
     1153
280
     0
281
     0
  0
CLASS
  1
ACDBPLACEHOLDER
  2
AcDbPlaceHolder
  3
ObjectDBX Classes
 90
        0
280
     0
281
     0
  0
CLASS
  1
LAYOUT
  2
AcDbLayout
  3
ObjectDBX Classes
 90
        0
280
     0
281
     0
  0
ENDSEC
  0
SECTION
  2
TABLES
  0
TABLE
  2
VPORT
  5
8
330
0
100
AcDbSymbolTable
 70
     1
  0
VPORT
  5
29
330
8
100
AcDbSymbolTableRecord
100
AcDbViewportTableRecord
  2
*Active
 70
     0
 10
0.0
 20
0.0
 11
1.0
 21
1.0
 12
139.7
 22
107.95
 13
0.0
 23
0.0
 14
10.0
 24
10.0
 15
10.0
 25
10.0
 16
0.0
 26
0.0
 36
1.0
 17
0.0
 27
0.0
 37
0.0
 40
215.9
 41
1.2941176471
 42
50.0
 43
0.0
 44
0.0
 50
0.0
 51
0.0
 71
     0
 72
  2000
 73
     1
 74
     3
 75
     0
 76
     0
 77
     0
 78
     0
281
     0
 65
     1
110
0.0
120
0.0
130
0.0
111
1.0
121
0.0
131
0.0
112
0.0
122
1.0
132
0.0
 79
     0
146
0.0
  0
ENDTAB
  0
TABLE
  2
LTYPE
  5
5
330
0
100
AcDbSymbolTable
 70
     6
  0
LTYPE
  5
14
330
5
100
AcDbSymbolTableRecord
100
AcDbLinetypeTableRecord
  2
ByBlock
 70
     0
  3

 72
    65
 73
     0
 40
0.0
  0
LTYPE
  5
15
330
5
100
AcDbSymbolTableRecord
100
AcDbLinetypeTableRecord
  2
ByLayer
 70
     0
  3

 72
    65
 73
     0
 40
0.0
  0
LTYPE
  5
16
330
5
100
AcDbSymbolTableRecord
100
AcDbLinetypeTableRecord
  2
Continuous
 70
     0
  3
Solid line
 72
    65
 73
     0
 40
0.0
  0
LTYPE
  5
6E
330
5
100
AcDbSymbolTableRecord
100
AcDbLinetypeTableRecord
  2
HIDDEN
 70
     0
  3
Hidden __ __ __ __ __ __ __ __ __ __ __ __ __ __
 72
    65
 73
     2
 40
1.905
 49
1.27
 74
     0
 49
-0.635
 74
     0
  0
LTYPE
  5
6F
330
5
100
AcDbSymbolTableRecord
100
AcDbLinetypeTableRecord
  2
PHANTOM
 70
     0
  3
Phantom ______  __  __  ______  __  __  ______
 72
    65
 73
     6
 40
12.7
 49
6.35
 74
     0
 49
-1.27
 74
     0
 49
1.27
 74
     0
 49
-1.27
 74
     0
 49
1.27
 74
     0
 49
-1.27
 74
     0
  0
LTYPE
  5
70
330
5
100
AcDbSymbolTableRecord
100
AcDbLinetypeTableRecord
  2
CENTER
 70
     0
  3
Center ____ _ ____ _ ____ _ ____ _ ____ _ ____
 72
    65
 73
     4
 40
10.16
 49
6.35
 74
     0
 49
-1.27
 74
     0
 49
1.27
 74
     0
 49
-1.27
 74
     0
  0
LTYPE
  5
71
330
5
100
AcDbSymbolTableRecord
100
AcDbLinetypeTableRecord
  2
CENTERX2
 70
     0
  3
Center (2x) ________  __  ________  __  _____
 72
    65
 73
     4
 40
20.32
 49
12.7
 74
     0
 49
-2.54
 74
     0
 49
2.54
 74
     0
 49
-2.54
 74
     0
  0
LTYPE
  5
72
330
5
100
AcDbSymbolTableRecord
100
AcDbLinetypeTableRecord
  2
DOT2
 70
     0
  3
Dot (.5x) ........................................
 72
    65
 73
     2
 40
0.635
 49
0.0
 74
     0
 49
-0.635
 74
     0
  0
ENDTAB
  0
TABLE
  2
LAYER
  5
2
330
0
100
AcDbSymbolTable
 70
    17
  0
LAYER
  5
10
330
2
100
AcDbSymbolTableRecord
100
AcDbLayerTableRecord
  2
0
 70
     0
 62
     7
  6
Continuous
370
    -3
390
F
  0
LAYER
  5
73
330
2
100
AcDbSymbolTableRecord
100
AcDbLayerTableRecord
  2
FORMAT
 70
     0
 62
     7
  6
Continuous
370
    -3
390
F
  0
LAYER
  5
74
330
2
100
AcDbSymbolTableRecord
100
AcDbLayerTableRecord
  2
YARDIMCI_GEOMETRI
 70
     0
 62
    -6
  6
Continuous
290
     0
370
    -3
390
F
  0
LAYER
  5
75
330
2
100
AcDbSymbolTableRecord
100
AcDbLayerTableRecord
  2
SAYFA_CERCEVESI
 70
     0
 62
     7
  6
Continuous
370
    25
390
F
  0
LAYER
  5
76
330
2
100
AcDbSymbolTableRecord
100
AcDbLayerTableRecord
  2
ANTET
 70
     0
 62
     7
  6
Continuous
370
    -3
390
F
  0
LAYER
  5
77
330
2
100
AcDbSymbolTableRecord
100
AcDbLayerTableRecord
  2
OLCU
 70
     0
 62
   150
  6
Continuous
370
    -3
390
F
  0
LAYER
  5
78
330
2
100
AcDbSymbolTableRecord
100
AcDbLayerTableRecord
  2
METIN
 70
     0
 62
    96
  6
Continuous
370
    -3
390
F
  0
LAYER
  5
79
330
2
100
AcDbSymbolTableRecord
100
AcDbLayerTableRecord
  2
BALON
 70
     0
 62
     5
  6
Continuous
370
    -3
390
F
  0
LAYER
  5
7A
330
2
100
AcDbSymbolTableRecord
100
AcDbLayerTableRecord
  2
VURGU
 70
     0
 62
     7
  6
Continuous
370
    -3
390
F
  0
LAYER
  5
7B
330
2
100
AcDbSymbolTableRecord
100
AcDbLayerTableRecord
  2
SILIK
 70
     0
 62
     7
  6
Continuous
370
    -3
390
F
  0
LAYER
  5
7C
330
2
100
AcDbSymbolTableRecord
100
AcDbLayerTableRecord
  2
MODEL
 70
     0
 62
     7
  6
Continuous
370
    -3
390
F
  0
LAYER
  5
7D
330
2
100
AcDbSymbolTableRecord
100
AcDbLayerTableRecord
  2
DETAYLANDıRMA
 70
     0
 62
   190
  6
Continuous
370
    -3
390
F
  0
LAYER
  5
7E
330
2
100
AcDbSymbolTableRecord
100
AcDbLayerTableRecord
  2
TOLERANS
 70
     0
 62
   230
  6
Continuous
370
    -3
390
F
  0
LAYER
  5
7F
330
2
100
AcDbSymbolTableRecord
100
AcDbLayerTableRecord
  2
MERKEZ_CIZGILERI
 70
     0
 62
    30
  6
Continuous
370
    -3
390
F
  0
LAYER
  5
80
330
2
100
AcDbSymbolTableRecord
100
AcDbLayerTableRecord
  2
KESIT-DETAY_CIZGILERI
 70
     0
 62
     7
  6
Continuous
370
    -3
390
F
  0
LAYER
  5
81
330
2
100
AcDbSymbolTableRecord
100
AcDbLayerTableRecord
  2
\U+041E\U+0421\U+0415\U+0412\U+042B\U+0415
 70
     0
 62
     7
  6
Continuous
370
    -3
390
F
  0
LAYER
  5
82
330
2
100
AcDbSymbolTableRecord
100
AcDbLayerTableRecord
  2
\U+0412\U+041E\U+0414\U+042F\U+041D\U+042B\U+0415_\U+0417\U+041D\U+0410\U+041A\U+0418
 70
     0
 62
    11
  6
Continuous
370
    -3
390
F
  0
ENDTAB
  0
TABLE
  2
STYLE
  5
3
330
0
100
AcDbSymbolTable
 70
     1
  0
STYLE
  5
11
330
3
100
AcDbSymbolTableRecord
100
AcDbTextStyleTableRecord
  2
Standard
 70
     0
 40
0.0
 41
1.0
 50
0.0
 71
     0
 42
3.5
  3
txt
  4

  0
ENDTAB
  0
TABLE
  2
VIEW
  5
6
330
0
100
AcDbSymbolTable
 70
     0
  0
ENDTAB
  0
TABLE
  2
UCS
  5
7
330
0
100
AcDbSymbolTable
 70
     0
  0
ENDTAB
  0
TABLE
  2
APPID
  5
9
330
0
100
AcDbSymbolTable
 70
     1
  0
APPID
  5
12
330
9
100
AcDbSymbolTableRecord
100
AcDbRegAppTableRecord
  2
ACAD
 70
     0
  0
ENDTAB
  0
TABLE
  2
DIMSTYLE
  5
A
330
0
100
AcDbSymbolTable
 70
     1
100
AcDbDimStyleTable
  0
DIMSTYLE
105
27
330
A
100
AcDbSymbolTableRecord
100
AcDbDimStyleTableRecord
  2
ISO-25
 70
     0
 41
2.5
 42
0.625
 43
3.75
 44
1.25
 73
     0
 74
     0
 77
     1
 78
     8
140
2.5
141
2.5
143
0.0393700787
147
0.625
171
     3
172
     1
178
     0
271
     2
272
     2
274
     3
278
    44
283
     0
284
     8
340
11
  0
ENDTAB
  0
TABLE
  2
BLOCK_RECORD
  5
1
330
0
100
AcDbSymbolTable
 70
     1
  0
BLOCK_RECORD
  5
1F
330
1
100
AcDbSymbolTableRecord
100
AcDbBlockTableRecord
  2
*Model_Space
340
22
  0
BLOCK_RECORD
  5
1B
330
1
100
AcDbSymbolTableRecord
100
AcDbBlockTableRecord
  2
*Paper_Space
340
1E
  0
BLOCK_RECORD
  5
23
330
1
100
AcDbSymbolTableRecord
100
AcDbBlockTableRecord
  2
*Paper_Space0
340
26
  0
ENDTAB
  0
ENDSEC
  0
SECTION
  2
BLOCKS
  0
BLOCK
  5
20
330
1F
100
AcDbEntity
  8
0
100
AcDbBlockBegin
  2
*Model_Space
 70
     0
 10
0.0
 20
0.0
 30
0.0
  3
*Model_Space
  1

  0
ENDBLK
  5
21
330
1F
100
AcDbEntity
  8
0
100
AcDbBlockEnd
  0
BLOCK
  5
1C
330
1B
100
AcDbEntity
 67
     1
  8
0
100
AcDbBlockBegin
  2
*Paper_Space
 70
     0
 10
0.0
 20
0.0
 30
0.0
  3
*Paper_Space
  1

  0
ENDBLK
  5
1D
330
1B
100
AcDbEntity
 67
     1
  8
0
100
AcDbBlockEnd
  0
BLOCK
  5
24
330
23
100
AcDbEntity
  8
0
100
AcDbBlockBegin
  2
*Paper_Space0
 70
     0
 10
0.0
 20
0.0
 30
0.0
  3
*Paper_Space0
  1

  0
ENDBLK
  5
25
330
23
100
AcDbEntity
  8
0
100
AcDbBlockEnd
  0
ENDSEC
  0
SECTION
  2
ENTITIES
  0
CIRCLE
  5
83
330
1F
100
AcDbEntity
  8
0
  6
Continuous
 62
     7
370
    25
100
AcDbCircle
 10
138.558547412
 20
109.2982330964
 30
0.0
 40
100.0
  0
CIRCLE
  5
84
330
1F
100
AcDbEntity
  8
0
  6
Continuous
 62
     7
370
    25
100
AcDbCircle
 10
138.558547412
 20
109.2982330964
 30
0.0
 40
88.09999999999998
  0
CIRCLE
  5
85
330
1F
100
AcDbEntity
  8
0
  6
Continuous
 62
     7
370
    25
100
AcDbCircle
 10
138.558547412
 20
109.2982330964
 30
0.0
 40
115.0
  0
CIRCLE
  5
86
330
1F
100
AcDbEntity
  8
0
  6
Continuous
 62
     7
370
    25
100
AcDbCircle
 10
138.558547412
 20
109.2982330964
 30
0.0
 40
134.0
  0
LINE
  5
87
330
1F
100
AcDbEntity
  8
0
  6
Continuous
 62
     7
370
    25
100
AcDbLine
 10
272.558547412
 20
350.4836777378
 30
0.0
 11
272.558547412
 21
374.4836777378
 31
0.0
  0
LINE
  5
88
330
1F
100
AcDbEntity
  8
0
  6
Continuous
 62
     7
370
    25
100
AcDbLine
 10
4.558547412
 20
374.4836777378
 30
0.0
 11
4.558547412
 21
350.4836777378
 31
0.0
  0
LINE
  5
89
330
1F
100
AcDbEntity
  8
0
  6
Continuous
 62
     7
370
    25
100
AcDbLine
 10
253.558547412
 20
374.4836777378
 30
0.0
 11
238.558547412
 21
413.4836777378
 31
0.0
  0
LINE
  5
8A
330
1F
100
AcDbEntity
  8
0
  6
Continuous
 62
     7
370
    25
100
AcDbLine
 10
38.558547412
 20
413.4836777378
 30
0.0
 11
23.558547412
 21
374.4836777378
 31
0.0
  0
LINE
  5
8B
330
1F
100
AcDbEntity
  8
0
  6
Continuous
 62
     7
370
    25
100
AcDbLine
 10
238.558547412
 20
413.4836777378
 30
0.0
 11
238.558547412
 21
470.4836777378
 31
0.0
  0
LINE
  5
8C
330
1F
100
AcDbEntity
  8
0
  6
Continuous
 62
     7
370
    25
100
AcDbLine
 10
38.558547412
 20
470.4836777378
 30
0.0
 11
38.558547412
 21
413.4836777378
 31
0.0
  0
LINE
  5
8D
330
1F
100
AcDbEntity
  8
0
  6
Continuous
 62
     7
370
    25
100
AcDbLine
 10
272.558547412
 20
350.4836777378
 30
0.0
 11
4.558547412
 21
350.4836777378
 31
0.0
  0
LINE
  5
8E
330
1F
100
AcDbEntity
  8
0
  6
Continuous
 62
     7
370
    25
100
AcDbLine
 10
272.558547412
 20
374.4836777378
 30
0.0
 11
4.558547412
 21
374.4836777378
 31
0.0
  0
LINE
  5
8F
330
1F
100
AcDbEntity
  8
0
  6
Continuous
 62
     7
370
    25
100
AcDbLine
 10
238.558547412
 20
413.4836777378
 30
0.0
 11
38.558547412
 21
413.4836777378
 31
0.0
  0
LINE
  5
90
330
1F
100
AcDbEntity
  8
0
  6
Continuous
 62
     7
370
    25
100
AcDbLine
 10
238.558547412
 20
470.4836777378
 30
0.0
 11
38.558547412
 21
470.4836777378
 31
0.0
  0
LINE
  5
91
330
1F
100
AcDbEntity
  8
0
  6
Continuous
 62
     7
370
    25
100
AcDbLine
 10
-93.393010372
 20
243.2982330964
 30
0.0
 11
-117.393010372
 21
243.2982330964
 31
0.0
  0
LINE
  5
92
330
1F
100
AcDbEntity
  8
0
  6
Continuous
 62
     7
370
    25
100
AcDbLine
 10
-117.393010372
 20
-24.7017669036
 30
0.0
 11
-93.393010372
 21
-24.7017669036
 31
0.0
  0
LINE
  5
93
330
1F
100
AcDbEntity
  8
0
  6
Continuous
 62
     7
370
    25
100
AcDbLine
 10
-117.393010372
 20
224.2982330964
 30
0.0
 11
-156.393010372
 21
209.2982330964
 31
0.0
  0
LINE
  5
94
330
1F
100
AcDbEntity
  8
0
  6
Continuous
 62
     7
370
    25
100
AcDbLine
 10
-156.393010372
 20
9.2982330964
 30
0.0
 11
-117.393010372
 21
-5.7017669036
 31
0.0
  0
LINE
  5
95
330
1F
100
AcDbEntity
  8
0
  6
Continuous
 62
     7
370
    25
100
AcDbLine
 10
-156.393010372
 20
209.2982330964
 30
0.0
 11
-213.393010372
 21
209.2982330964
 31
0.0
  0
LINE
  5
96
330
1F
100
AcDbEntity
  8
0
  6
Continuous
 62
     7
370
    25
100
AcDbLine
 10
-213.393010372
 20
9.2982330964
 30
0.0
 11
-156.393010372
 21
9.2982330964
 31
0.0
  0
LINE
  5
97
330
1F
100
AcDbEntity
  8
0
  6
Continuous
 62
     7
370
    25
100
AcDbLine
 10
-93.393010372
 20
243.2982330964
 30
0.0
 11
-93.393010372
 21
-24.7017669036
 31
0.0
  0
LINE
  5
98
330
1F
100
AcDbEntity
  8
0
  6
Continuous
 62
     7
370
    25
100
AcDbLine
 10
-117.393010372
 20
243.2982330964
 30
0.0
 11
-117.393010372
 21
-24.7017669036
 31
0.0
  0
LINE
  5
99
330
1F
100
AcDbEntity
  8
0
  6
Continuous
 62
     7
370
    25
100
AcDbLine
 10
-156.393010372
 20
209.2982330964
 30
0.0
 11
-156.393010372
 21
9.2982330964
 31
0.0
  0
LINE
  5
9A
330
1F
100
AcDbEntity
  8
0
  6
Continuous
 62
     7
370
    25
100
AcDbLine
 10
-213.393010372
 20
209.2982330964
 30
0.0
 11
-213.393010372
 21
9.2982330964
 31
0.0
  0
LINE
  5
9B
330
1F
100
AcDbEntity
  8
0
  6
Continuous
 62
     7
370
    25
100
AcDbLine
 10
4.558547412
 20
-113.5476505081
 30
0.0
 11
4.558547412
 21
-137.5476505081
 31
0.0
  0
LINE
  5
9C
330
1F
100
AcDbEntity
  8
0
  6
Continuous
 62
     7
370
    25
100
AcDbLine
 10
272.558547412
 20
-137.5476505081
 30
0.0
 11
272.558547412
 21
-113.5476505081
 31
0.0
  0
LINE
  5
9D
330
1F
100
AcDbEntity
  8
0
  6
Continuous
 62
     7
370
    25
100
AcDbLine
 10
23.558547412
 20
-137.5476505081
 30
0.0
 11
38.558547412
 21
-176.5476505081
 31
0.0
  0
LINE
  5
9E
330
1F
100
AcDbEntity
  8
0
  6
Continuous
 62
     7
370
    25
100
AcDbLine
 10
238.558547412
 20
-176.5476505081
 30
0.0
 11
253.558547412
 21
-137.5476505081
 31
0.0
  0
LINE
  5
9F
330
1F
100
AcDbEntity
  8
0
  6
Continuous
 62
     7
370
    25
100
AcDbLine
 10
38.558547412
 20
-176.5476505081
 30
0.0
 11
38.558547412
 21
-233.5476505081
 31
0.0
  0
LINE
  5
A0
330
1F
100
AcDbEntity
  8
0
  6
Continuous
 62
     7
370
    25
100
AcDbLine
 10
238.558547412
 20
-233.5476505081
 30
0.0
 11
238.558547412
 21
-176.5476505081
 31
0.0
  0
LINE
  5
A1
330
1F
100
AcDbEntity
  8
0
  6
Continuous
 62
     7
370
    25
100
AcDbLine
 10
4.558547412
 20
-113.5476505081
 30
0.0
 11
272.558547412
 21
-113.5476505081
 31
0.0
  0
LINE
  5
A2
330
1F
100
AcDbEntity
  8
0
  6
Continuous
 62
     7
370
    25
100
AcDbLine
 10
4.558547412
 20
-137.5476505081
 30
0.0
 11
272.558547412
 21
-137.5476505081
 31
0.0
  0
LINE
  5
A3
330
1F
100
AcDbEntity
  8
0
  6
Continuous
 62
     7
370
    25
100
AcDbLine
 10
38.558547412
 20
-176.5476505081
 30
0.0
 11
238.558547412
 21
-176.5476505081
 31
0.0
  0
LINE
  5
A4
330
1F
100
AcDbEntity
  8
0
  6
Continuous
 62
     7
370
    25
100
AcDbLine
 10
38.558547412
 20
-233.5476505081
 30
0.0
 11
238.558547412
 21
-233.5476505081
 31
0.0
  0
LINE
  5
A5
330
1F
100
AcDbEntity
  8
0
  6
Continuous
 62
     7
370
    25
100
AcDbLine
 10
398.3205702858
 20
-24.7017669036
 30
0.0
 11
422.3205702858
 21
-24.7017669036
 31
0.0
  0
LINE
  5
A6
330
1F
100
AcDbEntity
  8
0
  6
Continuous
 62
     7
370
    25
100
AcDbLine
 10
422.3205702858
 20
243.2982330964
 30
0.0
 11
398.3205702858
 21
243.2982330964
 31
0.0
  0
LINE
  5
A7
330
1F
100
AcDbEntity
  8
0
  6
Continuous
 62
     7
370
    25
100
AcDbLine
 10
422.3205702858
 20
-5.7017669036
 30
0.0
 11
461.3205702858
 21
9.2982330964
 31
0.0
  0
LINE
  5
A8
330
1F
100
AcDbEntity
  8
0
  6
Continuous
 62
     7
370
    25
100
AcDbLine
 10
461.3205702858
 20
209.2982330964
 30
0.0
 11
422.3205702858
 21
224.2982330964
 31
0.0
  0
LINE
  5
A9
330
1F
100
AcDbEntity
  8
0
  6
Continuous
 62
     7
370
    25
100
AcDbLine
 10
461.3205702858
 20
9.2982330964
 30
0.0
 11
518.3205702858
 21
9.2982330964
 31
0.0
  0
LINE
  5
AA
330
1F
100
AcDbEntity
  8
0
  6
Continuous
 62
     7
370
    25
100
AcDbLine
 10
518.3205702858
 20
209.2982330964
 30
0.0
 11
461.3205702858
 21
209.2982330964
 31
0.0
  0
LINE
  5
AB
330
1F
100
AcDbEntity
  8
0
  6
Continuous
 62
     7
370
    25
100
AcDbLine
 10
398.3205702858
 20
109.2982330964
 30
0.0
 11
398.3205702858
 21
243.2982330964
 31
0.0
  0
LINE
  5
AC
330
1F
100
AcDbEntity
  8
0
  6
Continuous
 62
     7
370
    25
100
AcDbLine
 10
398.3205702858
 20
-24.7017669036
 30
0.0
 11
398.3205702858
 21
109.2982330964
 31
0.0
  0
LINE
  5
AD
330
1F
100
AcDbEntity
  8
0
  6
Continuous
 62
     7
370
    25
100
AcDbLine
 10
422.3205702858
 20
109.2982330964
 30
0.0
 11
422.3205702858
 21
243.2982330964
 31
0.0
  0
LINE
  5
AE
330
1F
100
AcDbEntity
  8
0
  6
Continuous
 62
     7
370
    25
100
AcDbLine
 10
422.3205702858
 20
-24.7017669036
 30
0.0
 11
422.3205702858
 21
109.2982330964
 31
0.0
  0
LINE
  5
AF
330
1F
100
AcDbEntity
  8
0
  6
Continuous
 62
     7
370
    25
100
AcDbLine
 10
461.3205702858
 20
109.2982330964
 30
0.0
 11
461.3205702858
 21
209.2982330964
 31
0.0
  0
LINE
  5
B0
330
1F
100
AcDbEntity
  8
0
  6
Continuous
 62
     7
370
    25
100
AcDbLine
 10
461.3205702858
 20
9.2982330964
 30
0.0
 11
461.3205702858
 21
109.2982330964
 31
0.0
  0
LINE
  5
B1
330
1F
100
AcDbEntity
  8
0
  6
Continuous
 62
     7
370
    25
100
AcDbLine
 10
518.3205702858
 20
109.2982330964
 30
0.0
 11
518.3205702858
 21
209.2982330964
 31
0.0
  0
LINE
  5
B2
330
1F
100
AcDbEntity
  8
0
  6
Continuous
 62
     7
370
    25
100
AcDbLine
 10
518.3205702858
 20
9.2982330964
 30
0.0
 11
518.3205702858
 21
109.2982330964
 31
0.0
  0
LINE
  5
B3
330
1F
100
AcDbEntity
  8
0
  6
Continuous
 62
     7
370
    25
100
AcDbLine
 10
507.3516007714
 20
-94.200589674
 30
0.0
 11
467.0465142438
 21
-70.9329584871
 31
0.0
  0
LINE
  5
B4
330
1F
100
AcDbEntity
  8
0
  6
Continuous
 62
     7
370
    25
100
AcDbLine
 10
367.0546409802
 20
-244.1427309632
 30
0.0
 11
407.3597275078
 21
-267.4103621502
 31
0.0
  0
LINE
  5
B5
330
1F
100
AcDbEntity
  8
0
  6
Continuous
 62
     7
370
    25
100
AcDbLine
 10
524.620167338
 20
-91.8553994115
 30
0.0
 11
500.4207494597
 21
-90.1994943775
 31
0.0
  0
LINE
  5
B6
330
1F
100
AcDbEntity
  8
0
  6
Continuous
 62
     7
370
    25
100
AcDbLine
 10
400.4288761961
 20
-263.4092668536
 30
0.0
 11
413.9645298041
 21
-283.5373549033
 31
0.0
  0
LINE
  5
B7
330
1F
100
AcDbEntity
  8
0
  6
Continuous
 62
     7
370
    25
100
AcDbLine
 10
568.897946441
 20
-90.4717838755
 30
0.0
 11
551.9273836925
 21
-80.6748865336
 31
0.0
  0
LINE
  5
B8
330
1F
100
AcDbEntity
  8
0
  6
Continuous
 62
     7
370
    25
100
AcDbLine
 10
417.9382735193
 20
-312.7759816517
 30
0.0
 11
434.9088362678
 21
-322.5728789935
 31
0.0
  0
LWPOLYLINE
  5
B9
330
1F
100
AcDbEntity
  8
0
  6
Continuous
 62
     7
370
    25
100
AcDbPolyline
 90
      121
 70
   128
 43
0.0
 10
346.3398994934
 20
-198.3582503163
 10
346.4368060202
 20
-194.028862949
 10
346.7272599867
 20
-189.5994562372
 10
347.2104652786
 20
-185.0821708768
 10
347.885097464
 20
-180.489388433
 10
348.7493074228
 20
-175.8336974033
 10
349.8007264156
 20
-171.1278587131
 10
351.0364725761
 20
-166.3847707392
 10
352.4531588099
 20
-161.617433956
 10
354.0469020785
 20
-156.8389153023
 10
355.8133340424
 20
-152.0623123656
 10
357.7476130344
 20
-147.3007174825
 10
359.8444373302
 20
-142.5671818535
 10
362.0980596802
 20
-137.8746797709
 10
364.5023030621
 20
-133.2360730567
 10
367.050577612
 20
-128.6640758094
 10
369.7358986864
 20
-124.1712195558
 10
372.550906007
 20
-119.7698189024
 10
375.4878838343
 20
-115.4719377826
 10
378.5387821162
 20
-111.2893563898
 10
381.6952385527
 20
-107.2335388888
 10
384.948601516
 20
-103.3156019934
 10
388.2899537644
 20
-99.5462844965
 10
391.7101368837
 20
-95.9359178352
 10
395.1997763896
 20
-92.4943977736
 10
398.7493074228
 20
-89.231157279
 10
402.3490009655
 20
-86.1551406668
 10
405.9889905079
 20
-83.2747790846
 10
409.6592990916
 20
-80.5979674034
 10
413.3498666561
 20
-78.1320425778
 10
417.050577612
 20
-75.8837635366
 10
420.7512885679
 20
-73.8592926562
 10
424.4418561324
 20
-72.0641788705
 10
428.1121647161
 20
-70.5033424618
 10
431.7521542585
 20
-69.1810615741
 10
435.3518478012
 20
-68.1009604874
 10
438.9013788344
 20
-67.2659996837
 10
442.3910183403
 20
-66.6784677326
 10
445.8112014596
 20
-66.3399750182
 10
449.152553708
 20
-66.2514493257
 10
452.4059166713
 20
-66.4131332976
 10
455.5623731078
 20
-66.8245837696
 10
458.6132713898
 20
-67.4846729845
 10
461.550249217
 20
-68.3915916836
 10
464.3652565376
 20
-69.5428540658
 10
467.050577612
 20
-70.9353046009
 10
469.5988521619
 20
-72.5651266788
 10
472.0030955438
 20
-74.4278530706
 10
474.2567178938
 20
-76.5183781725
 10
476.3535421896
 20
-78.8309720007
 10
478.2878211816
 20
-81.3592958962
 10
480.0542531455
 20
-84.0964198989
 10
481.6479964141
 20
-87.0348417422
 10
483.0646826479
 20
-90.1665074161
 10
484.3004288084
 20
-93.4828332426
 10
485.3518478012
 20
-96.9747294031
 10
486.21605776
 20
-100.6326248531
 10
486.8906899454
 20
-104.4464935554
 10
487.3738952373
 20
-108.4058819608
 10
487.6643492038
 20
-112.4999376611
 10
487.7612557307
 20
-116.717439134
 10
487.6643492038
 20
-121.0468265013
 10
487.3738952373
 20
-125.4762332131
 10
486.8906899454
 20
-129.9935185735
 10
486.21605776
 20
-134.5863010173
 10
485.3518478012
 20
-139.241992047
 10
484.3004288084
 20
-143.9478307373
 10
483.0646826479
 20
-148.6909187112
 10
481.6479964141
 20
-153.4582554943
 10
480.0542531455
 20
-158.236774148
 10
478.2878211816
 20
-163.0133770847
 10
476.3535421896
 20
-167.7749719679
 10
474.2567178938
 20
-172.5085075968
 10
472.0030955438
 20
-177.2010096794
 10
469.5988521619
 20
-181.8396163936
 10
467.050577612
 20
-186.4116136409
 10
464.3652565376
 20
-190.9044698946
 10
461.550249217
 20
-195.3058705479
 10
458.6132713898
 20
-199.6037516677
 10
455.5623731078
 20
-203.7863330606
 10
452.4059166713
 20
-207.8421505616
 10
449.152553708
 20
-211.7600874569
 10
445.8112014596
 20
-215.5294049538
 10
442.3910183403
 20
-219.1397716151
 10
438.9013788344
 20
-222.5812916767
 10
435.3518478012
 20
-225.8445321713
 10
431.7521542585
 20
-228.9205487836
 10
428.1121647161
 20
-231.8009103658
 10
424.4418561324
 20
-234.477722047
 10
420.7512885679
 20
-236.9436468725
 10
417.050577612
 20
-239.1919259137
 10
413.3498666561
 20
-241.2163967942
 10
409.6592990916
 20
-243.0115105798
 10
405.9889905079
 20
-244.5723469885
 10
402.3490009655
 20
-245.8946278762
 10
398.7493074228
 20
-246.9747289629
 10
395.1997763896
 20
-247.8096897666
 10
391.7101368837
 20
-248.3972217177
 10
388.2899537644
 20
-248.7357144321
 10
384.948601516
 20
-248.8242401247
 10
381.6952385527
 20
-248.6625561527
 10
378.5387821162
 20
-248.2511056807
 10
375.4878838343
 20
-247.5910164659
 10
372.550906007
 20
-246.6840977668
 10
369.7358986864
 20
-245.5328353846
 10
367.050577612
 20
-244.1403848494
 10
364.5023030621
 20
-242.5105627715
 10
362.0980596802
 20
-240.6478363798
 10
359.8444373302
 20
-238.5573112778
 10
357.7476130344
 20
-236.2447174496
 10
355.8133340424
 20
-233.7163935542
 10
354.0469020785
 20
-230.9792695515
 10
352.4531588099
 20
-228.0408477082
 10
351.0364725761
 20
-224.9091820343
 10
349.8007264156
 20
-221.5928562078
 10
348.7493074228
 20
-218.1009600472
 10
347.885097464
 20
-214.4430645972
 10
347.2104652786
 20
-210.629195895
 10
346.7272599867
 20
-206.6698074895
 10
346.4368060202
 20
-202.5757517893
 10
346.3398994934
 20
-198.3582503163
  0
LWPOLYLINE
  5
BA
330
1F
100
AcDbEntity
  8
0
  6
Continuous
 62
     7
370
    25
100
AcDbPolyline
 90
      114
 70
   128
 43
0.0
 10
354.7544701895
 20
-193.500622051
 10
354.8507470385
 20
-189.4471472845
 10
355.1392799992
 20
-185.2950426926
 10
355.6191772329
 20
-181.0571421924
 10
356.2889554047
 20
-176.7465448915
 10
357.1465442687
 20
-172.3765745993
 10
358.1892930667
 20
-167.9607386434
 10
359.413978722
 20
-163.5126861197
 10
360.8168158015
 20
-159.0461657036
 10
362.3934682162
 20
-154.5749831539
 10
364.1390626237
 20
-150.1129586394
 10
366.0482034917
 20
-145.6738840224
 10
368.1149897754
 20
-141.271480228
 10
370.3330331567
 20
-136.9193548341
 10
372.6954777906
 20
-132.6309600108
 10
375.1950214962
 20
-128.4195509408
 10
377.8239383271
 20
-124.2981448482
 10
380.5741024521
 20
-120.279480763
 10
383.4370132713
 20
-116.3759801457
 10
386.4038216917
 20
-112.5997084929
 10
389.4653574783
 20
-108.9623380438
 10
392.6121575995
 20
-105.4751117022
 10
395.8344954764
 20
-102.1488082848
 10
399.1224110474
 20
-98.9937092047
 10
402.4657415538
 20
-96.0195666926
 10
405.8541529526
 20
-93.2355736523
 10
409.2771718584
 20
-90.650335247
 10
412.7242179159
 20
-88.2718423003
 10
416.1846365033
 20
-86.1074465976
 10
419.6477316651
 20
-84.1638381619
 10
423.1027991725
 20
-82.4470245757
 10
426.5391596099
 20
-80.9623124113
 10
429.9461913841
 20
-79.7142908289
 10
433.3133635552
 20
-78.7068173918
 10
436.6302683869
 20
-77.9430061424
 10
439.8866535165
 20
-77.4252179778
 10
443.0724536441
 20
-77.1550533513
 10
446.1778216442
 20
-77.1333473265
 10
449.1931590022
 20
-77.3601669953
 10
452.1091454831
 20
-77.8348112711
 10
454.9167679399
 20
-78.5558130558
 10
457.6073481724
 20
-79.5209437741
 10
460.1725697513
 20
-80.7272202623
 10
462.6045037237
 20
-82.1709139888
 10
464.8956331211
 20
-83.8475625792
 10
467.0388761938
 20
-85.7519836086
 10
469.0276083003
 20
-87.8782906209
 10
470.8556823836
 20
-90.2199113229
 10
472.5174479715
 20
-92.7696078992
 10
474.0077686418
 20
-95.5194993838
 10
475.3220378988
 20
-98.4610860197
 10
476.4561934114
 20
-101.5852755312
 10
477.4067295699
 20
-104.8824112276
 10
478.1707083216
 20
-108.3423018514
 10
478.745768252
 20
-111.9542530789
 10
479.1301318836
 20
-115.707100576
 10
479.3226111707
 20
-119.5892445059
 10
479.3226111707
 20
-123.5886853844
 10
479.1301318836
 20
-127.6930611689
 10
478.745768252
 20
-131.889685469
 10
478.1707083216
 20
-136.1655867595
 10
477.4067295699
 20
-140.5075484746
 10
476.4561934114
 20
-144.9021498594
 10
475.3220378988
 20
-149.335807453
 10
474.0077686418
 20
-153.7948170737
 10
472.5174479715
 20
-158.2653961784
 10
470.8556823836
 20
-162.7337264632
 10
469.0276083003
 20
-167.1859965754
 10
467.0388761938
 20
-171.6084448031
 10
464.8956331211
 20
-175.9874016123
 10
462.6045037237
 20
-180.3093318985
 10
460.1725697513
 20
-184.5608768228
 10
457.6073481724
 20
-188.7288951035
 10
454.9167679399
 20
-192.800503635
 10
452.1091454831
 20
-196.7631173086
 10
449.1931590022
 20
-200.6044879126
 10
446.1778216442
 20
-204.3127419905
 10
443.0724536441
 20
-207.8764175415
 10
439.8866535165
 20
-211.2844994488
 10
436.6302683869
 20
-214.5264535264
 10
433.3133635552
 20
-217.59225908
 10
429.9461913841
 20
-220.4724398805
 10
426.5391596099
 20
-223.158093454
 10
423.1027991725
 20
-225.6409185992
 10
419.6477316651
 20
-227.9132410459
 10
416.1846365033
 20
-229.9680371756
 10
412.7242179159
 20
-231.7989557313
 10
409.2771718584
 20
-233.4003374486
 10
405.8541529526
 20
-234.7672325483
 10
402.4657415538
 20
-235.8954160362
 10
399.1224110474
 20
-236.7814007616
 10
395.8344954764
 20
-237.4224481965
 10
392.6121575995
 20
-237.8165769002
 10
389.4653574783
 20
-237.9625686433
 10
386.4038216917
 20
-237.8599721736
 10
383.4370132713
 20
-237.5091046112
 10
380.5741024521
 20
-236.9110504674
 10
377.8239383271
 20
-236.0676582933
 10
375.1950214962
 20
-234.9815349658
 10
372.6954777906
 20
-233.65603763
 10
370.3330331567
 20
-232.095263322
 10
368.1149897754
 20
-230.3040363058
 10
366.0482034917
 20
-228.2878931616
 10
364.1390626237
 20
-226.0530656721
 10
362.3934682162
 20
-223.6064615612
 10
360.8168158015
 20
-220.9556431418
 10
359.413978722
 20
-218.1088039418
 10
358.1892930667
 20
-215.0747433782
 10
357.1465442687
 20
-211.862839558
 10
356.2889554047
 20
-208.4830202921
 10
355.6191772329
 20
-204.9457324081
 10
355.1392799992
 20
-201.26190946
 10
354.8507470385
 20
-197.4429379336
 10
354.7544701895
 20
-193.500622051
  0
LWPOLYLINE
  5
BB
330
1F
100
AcDbEntity
  8
0
  6
Continuous
 62
     7
370
    25
100
AcDbPolyline
 90
       62
 70
   128
 43
0.0
 10
507.3516007714
 20
-94.200589674
 10
507.3556641396
 20
-94.2029357878
 10
509.9039386895
 20
-95.8327578658
 10
512.3081820714
 20
-97.6954842575
 10
514.5618044214
 20
-99.7860093595
 10
516.6586287172
 20
-102.0986031877
 10
518.5929077092
 20
-104.6269270831
 10
520.3593396731
 20
-107.3640510858
 10
521.9530829418
 20
-110.3024729291
 10
523.3697691756
 20
-113.434138603
 10
524.605515336
 20
-116.7504644295
 10
525.6569343289
 20
-120.2423605901
 10
526.5211442877
 20
-123.9002560401
 10
527.195776473
 20
-127.7141247423
 10
527.678981765
 20
-131.6735131477
 10
527.9694357315
 20
-135.767568848
 10
528.0663422583
 20
-139.985070321
 10
527.9694357315
 20
-144.3144576883
 10
527.678981765
 20
-148.7438644001
 10
527.195776473
 20
-153.2611497605
 10
526.5211442877
 20
-157.8539322043
 10
525.6569343289
 20
-162.509623234
 10
524.605515336
 20
-167.2154619242
 10
523.3697691756
 20
-171.9585498981
 10
521.9530829418
 20
-176.7258866813
 10
520.3593396731
 20
-181.504405335
 10
518.5929077092
 20
-186.2810082717
 10
516.6586287172
 20
-191.0426031548
 10
514.5618044214
 20
-195.7761387837
 10
512.3081820714
 20
-200.4686408663
 10
509.9039386895
 20
-205.1072475806
 10
507.3556641396
 20
-209.6792448278
 10
504.6703430652
 20
-214.1721010815
 10
501.8553357447
 20
-218.5735017349
 10
498.9183579174
 20
-222.8713828547
 10
495.8674596354
 20
-227.0539642475
 10
492.711003199
 20
-231.1097817485
 10
489.4576402356
 20
-235.0277186439
 10
486.1162879872
 20
-238.7970361408
 10
482.696104868
 20
-242.4074028021
 10
479.2064653621
 20
-245.8489228637
 10
475.6569343289
 20
-249.1121633583
 10
472.0572407862
 20
-252.1881799705
 10
468.4172512438
 20
-255.0685415527
 10
464.74694266
 20
-257.7453532339
 10
461.0563750956
 20
-260.2112780594
 10
457.3556641396
 20
-262.4595571007
 10
453.6549531837
 20
-264.4840279811
 10
449.9643856193
 20
-266.2791417667
 10
446.2940770355
 20
-267.8399781755
 10
442.6540874931
 20
-269.1622590632
 10
439.0543939504
 20
-270.2423601499
 10
435.5048629172
 20
-271.0773209535
 10
432.0152234113
 20
-271.6648529047
 10
428.595040292
 20
-272.003345619
 10
425.2536880436
 20
-272.0918713116
 10
422.0003250803
 20
-271.9301873397
 10
418.8438686438
 20
-271.5187368677
 10
415.7929703619
 20
-270.8586476528
 10
412.8559925346
 20
-269.9517289537
 10
410.0409852141
 20
-268.8004665715
 10
407.3597275078
 20
-267.4103621502
  0
LWPOLYLINE
  5
BC
330
1F
100
AcDbEntity
  8
0
  6
Continuous
 62
     7
370
    25
100
AcDbPolyline
 90
       23
 70
   128
 43
0.0
 10
429.6495745164
 20
-220.7152768758
 10
429.8987713263
 20
-219.2405871119
 10
430.7563601902
 20
-214.8706168196
 10
431.7991089882
 20
-210.4547808637
 10
433.0237946435
 20
-206.00672834
 10
434.426631723
 20
-201.540207924
 10
436.0032841377
 20
-197.0690253742
 10
437.7488785452
 20
-192.6070008598
 10
439.6580194133
 20
-188.1679262428
 10
441.7248056969
 20
-183.7655224484
 10
443.9428490782
 20
-179.4133970544
 10
446.3052937122
 20
-175.1250022311
 10
448.8048374177
 20
-170.9135931612
 10
451.4337542486
 20
-166.7921870686
 10
454.1839183736
 20
-162.7735229834
 10
457.0468291929
 20
-158.8700223661
 10
460.0136376132
 20
-155.0937507132
 10
463.0751733998
 20
-151.4563802642
 10
466.221973521
 20
-147.9691539226
 10
469.4443113979
 20
-144.6428505051
 10
472.7322269689
 20
-141.4877514251
 10
476.0755574753
 20
-138.513608913
 10
478.0613966291
 20
-136.8544547949
  0
LWPOLYLINE
  5
BD
330
1F
100
AcDbEntity
  8
0
  6
Continuous
 62
     7
370
    25
100
AcDbPolyline
 90
       78
 70
   128
 43
0.0
 10
524.620167338
 20
-91.8553994115
 10
525.5914685241
 20
-91.932015951
 10
528.9719686833
 20
-92.3628743074
 10
532.2480128677
 20
-93.0412691254
 10
535.4118306625
 20
-93.9655913276
 10
538.4559178414
 20
-95.1336485238
 10
541.3730541659
 20
-96.5426702112
 10
544.1563205111
 20
-98.1893143463
 10
546.7991152765
 20
-100.0696752709
 10
549.2951700451
 20
-102.1792929768
 10
551.6385644506
 20
-104.5131636838
 10
553.8237402205
 20
-107.0657517085
 10
555.8455143592
 20
-109.831002594
 10
557.6990914418
 20
-112.8023574708
 10
559.3800749883
 20
-115.9727686133
 10
560.8844778915
 20
-119.3347161568
 10
562.2087318738
 20
-122.8802259329
 10
563.3496959511
 20
-126.6008883842
 10
564.3046638827
 20
-130.4878785104
 10
565.0713705902
 20
-134.5319768005
 10
565.6479975299
 20
-138.7235911
 10
566.0331770065
 20
-143.052779363
 10
566.2259954168
 20
-147.5092732331
 10
566.2259954168
 20
-152.0825023993
 10
566.0331770065
 20
-156.7616196673
 10
565.6479975299
 20
-161.5355266878
 10
565.0713705902
 20
-166.3929002809
 10
564.3046638827
 20
-171.3222192929
 10
563.3496959511
 20
-176.3117919239
 10
562.2087318738
 20
-181.3497834588
 10
560.8844778915
 20
-186.4242443382
 10
559.3800749883
 20
-191.5231385016
 10
557.6990914418
 20
-196.6343719355
 10
555.8455143592
 20
-201.7458213587
 10
553.8237402205
 20
-206.8453629779
 10
551.6385644506
 20
-211.920901244
 10
549.2951700451
 20
-216.9603975407
 10
546.7991152765
 20
-221.9518987398
 10
544.1563205111
 20
-226.8835655518
 10
541.3730541659
 20
-231.7437006078
 10
538.4559178414
 20
-236.5207762046
 10
535.4118306625
 20
-241.2034616465
 10
532.2480128677
 20
-245.7806501211
 10
528.9719686833
 20
-250.241485043
 10
525.5914685241
 20
-254.5753858045
 10
522.1145305631
 20
-258.772072872
 10
518.549401713
 20
-262.8215921673
 10
514.9045380655
 20
-266.714338678
 10
511.1885848344
 20
-270.4410792396
 10
507.4103558504
 20
-273.9929744351
 10
503.5788126551
 20
-277.3615995615
 10
499.7030432456
 20
-280.5389646123
 10
495.7922405189
 20
-283.5175332285
 10
491.8556804669
 20
-286.2902405745
 10
487.9027001751
 20
-288.8505100948
 10
483.9426756761
 20
-291.192269113
 10
479.9849997104
 20
-293.3099632353
 10
476.0390594482
 20
-295.1985695254
 10
472.1142142239
 20
-296.8536084176
 10
468.2197733366
 20
-298.2711543427
 10
464.36497397
 20
-299.4478450383
 10
460.5589592822
 20
-300.3808895241
 10
456.8107567196
 20
-301.0680747216
 10
453.1292566045
 20
-301.5077707035
 10
449.5231910484
 20
-301.6989345595
 10
446.0011132406
 20
-301.64111287
 10
442.5713771604
 20
-301.3344427817
 10
439.2421177628
 20
-300.7796516822
 10
436.0212316834
 20
-299.9780554746
 10
432.916358508
 20
-298.9315554566
 10
429.9348626528
 20
-297.6426338107
 10
427.0838158966
 20
-296.1143477165
 10
424.3699806073
 20
-294.3503220999
 10
421.7997937024
 20
-292.3547410346
 10
419.3793513812
 20
-290.1323378186
 10
417.1143946656
 20
-287.6883837467
 10
415.0102957825
 20
-285.028675608
 10
413.9645298041
 20
-283.5373549033
  0
LWPOLYLINE
  5
BE
330
1F
100
AcDbEntity
  8
0
  6
Continuous
 62
     7
370
    25
100
AcDbPolyline
 90
       71
 70
   128
 43
0.0
 10
568.897946441
 20
-90.4717838755
 10
571.5003125931
 20
-92.0956057908
 10
574.3346920428
 20
-94.1668142211
 10
577.0210984954
 20
-96.4675585351
 10
579.5540437767
 20
-98.993138444
 10
581.9283532244
 20
-101.7383943328
 10
584.1391762604
 20
-104.6977178009
 10
586.1819963
 20
-107.8650631201
 10
588.0526399789
 20
-111.2339595854
 10
589.7472856792
 20
-114.7975247343
 10
591.2624713368
 20
-118.5484784076
 10
592.5951015143
 20
-122.4791576216
 10
593.7424537246
 20
-126.5815322241
 10
594.7021839929
 20
-130.8472212987
 10
595.4723316451
 20
-135.2675102872
 10
596.0513233139
 20
-139.8333687923
 10
596.4379761524
 20
-144.5354690269
 10
596.6315002509
 20
-149.3642048695
 10
596.6315002509
 20
-154.3097114895
 10
596.4379761524
 20
-159.3618855002
 10
596.0513233139
 20
-164.5104055998
 10
595.4723316451
 20
-169.7447536565
 10
594.7021839929
 20
-175.0542361972
 10
593.7424537246
 20
-180.4280062534
 10
592.5951015143
 20
-185.8550855208
 10
591.2624713368
 20
-191.3243867873
 10
589.7472856792
 20
-196.8247365839
 10
588.0526399789
 20
-202.3448980111
 10
586.1819963
 20
-207.8735936954
 10
584.1391762604
 20
-213.3995288283
 10
581.9283532244
 20
-218.911414241
 10
579.5540437767
 20
-224.3979894674
 10
577.0210984954
 20
-229.8480457488
 10
574.3346920428
 20
-235.2504489324
 10
571.5003125931
 20
-240.594162218
 10
568.5237506213
 20
-245.8682687057
 10
565.4110870728
 20
-251.0619936981
 10
562.168680941
 20
-256.1647267126
 10
558.8031562757
 20
-261.166043158
 10
555.3213886511
 20
-266.0557256315
 10
551.7304911189
 20
-270.8237847919
 10
548.0377996769
 20
-275.4604797675
 10
544.2508582822
 20
-279.9563380563
 10
540.3774034392
 20
-284.3021748773
 10
536.4253483939
 20
-288.489111935
 10
532.4027669686
 20
-292.5085955568
 10
528.3178770665
 20
-296.352414168
 10
524.1790238837
 20
-300.0127150675
 10
519.9946628599
 20
-303.4820204702
 10
515.7733424052
 20
-306.753242784
 10
511.5236864351
 20
-309.8196990891
 10
507.2543767535
 20
-312.6751247911
 10
502.9741353153
 20
-315.3136864188
 10
498.6917064086
 20
-317.7299935421
 10
494.4158387901
 20
-319.9191097838
 10
490.1552678126
 20
-321.876562905
 10
485.9186975782
 20
-323.5983539412
 10
481.7147831573
 20
-325.0809653718
 10
477.5521129062
 20
-326.3213683067
 10
473.4391909216
 20
-327.3170286737
 10
469.3844196674
 20
-328.0659123959
 10
465.3960828091
 20
-328.5664895466
 10
461.4823282903
 20
-328.8177374754
 10
457.6511516872
 20
-328.8191428972
 10
453.9103798741
 20
-328.5707029408
 10
450.2676550334
 20
-328.0729251548
 10
446.7304190433
 20
-327.3268264707
 10
443.3058982742
 20
-326.3339311253
 10
440.0010888258
 20
-325.0962675469
 10
436.8227422345
 20
-323.6163642114
 10
434.9088362678
 20
-322.5728789935
  0
LWPOLYLINE
  5
BF
330
1F
100
AcDbEntity
  8
0
  6
Continuous
 62
     7
370
    25
100
AcDbPolyline
 90
      103
 70
   128
 43
0.0
 10
490.3269349116
 20
-84.3724592708
 10
494.5531236867
 20
-82.3207101645
 10
498.8027796567
 20
-80.4806181255
 10
503.0241001115
 20
-78.8780075847
 10
507.2084611352
 20
-77.5161525836
 10
511.347314318
 20
-76.3978353138
 10
515.4322042201
 20
-75.5253404336
 10
519.4547856455
 20
-74.9004504
 10
523.4068406907
 20
-74.5244418275
 10
527.2802955338
 20
-74.3980828801
 10
531.0672369284
 20
-74.5216317018
 10
534.7599283704
 20
-74.8948358895
 10
538.3508259026
 20
-75.5169330085
 10
541.8325935273
 20
-76.3866521499
 10
545.1981181925
 20
-77.5022165274
 10
548.4405243243
 20
-78.8613471069
 10
551.5531878728
 20
-80.4612672625
 10
554.5297498446
 20
-82.298708449
 10
557.3641292943
 20
-84.3699168793
 10
560.050535747
 20
-86.6706611933
 10
562.5834810282
 20
-89.1962411021
 10
564.9577904759
 20
-91.9414969909
 10
567.1686135119
 20
-94.900820459
 10
569.2114335515
 20
-98.0681657782
 10
571.0820772304
 20
-101.4370622435
 10
572.7767229307
 20
-105.0006273925
 10
574.2919085883
 20
-108.7515810657
 10
575.6245387658
 20
-112.6822602797
 10
576.7718909761
 20
-116.7846348822
 10
577.7316212444
 20
-121.0503239568
 10
578.5017688967
 20
-125.4706129453
 10
579.0807605654
 20
-130.0364714504
 10
579.4674134039
 20
-134.738571685
 10
579.6609375024
 20
-139.5673075276
 10
579.6609375024
 20
-144.5128141476
 10
579.4674134039
 20
-149.5649881584
 10
579.0807605654
 20
-154.7135082579
 10
578.5017688967
 20
-159.9478563146
 10
577.7316212444
 20
-165.2573388554
 10
576.7718909761
 20
-170.6311089116
 10
575.6245387658
 20
-176.0581881789
 10
574.2919085883
 20
-181.5274894454
 10
572.7767229307
 20
-187.027839242
 10
571.0820772304
 20
-192.5480006692
 10
569.2114335515
 20
-198.0766963535
 10
567.1686135119
 20
-203.6026314864
 10
564.9577904759
 20
-209.1145168991
 10
562.5834810282
 20
-214.6010921256
 10
560.050535747
 20
-220.0511484069
 10
557.3641292943
 20
-225.4535515905
 10
554.5297498446
 20
-230.7972648762
 10
551.5531878728
 20
-236.0713713638
 10
548.4405243243
 20
-241.2650963562
 10
545.1981181925
 20
-246.3678293707
 10
541.8325935273
 20
-251.3691458161
 10
538.3508259026
 20
-256.2588282896
 10
534.7599283704
 20
-261.02688745
 10
531.0672369284
 20
-265.6635824257
 10
527.2802955338
 20
-270.1594407144
 10
523.4068406907
 20
-274.5052775355
 10
519.4547856455
 20
-278.6922145931
 10
515.4322042201
 20
-282.7116982149
 10
511.347314318
 20
-286.5555168262
 10
507.2084611352
 20
-290.2158177256
 10
503.0241001115
 20
-293.6851231283
 10
498.8027796567
 20
-296.9563454421
 10
494.5531236867
 20
-300.0228017473
 10
490.283814005
 20
-302.8782274492
 10
486.0035725668
 20
-305.516789077
 10
481.7211436601
 20
-307.9330962002
 10
477.4452760417
 20
-310.1222124419
 10
473.1847050641
 20
-312.0796655632
 10
468.9481348297
 20
-313.8014565993
 10
464.7442204089
 20
-315.2840680299
 10
460.5815501577
 20
-316.5244709648
 10
456.4686281731
 20
-317.5201313319
 10
452.413856919
 20
-318.269015054
 10
448.4255200606
 20
-318.7695922047
 10
444.5117655418
 20
-319.0208401335
 10
440.6805889387
 20
-319.0222455553
 10
436.9398171256
 20
-318.7738055989
 10
433.2970922849
 20
-318.2760278129
 10
429.7598562948
 20
-317.5299291288
 10
426.3353355257
 20
-316.5370337834
 10
423.0305260774
 20
-315.2993702051
 10
419.852179486
 20
-313.8194668695
 10
416.8067889318
 20
-312.1003471346
 10
413.9005759729
 20
-310.1455230632
 10
411.1394778361
 20
-307.9589882491
 10
408.5291352864
 20
-305.5452096575
 10
406.0748811043
 20
-302.9091184998
 10
403.7817291904
 20
-300.0561001592
 10
401.6543643227
 20
-296.9919831887
 10
399.6971325856
 20
-293.7230274037
 10
397.9140324914
 20
-290.2559110935
 10
396.3087068115
 20
-286.597717378
 10
394.8844351343
 20
-282.7559197375
 10
393.6441271652
 20
-278.7383667444
 10
392.5903167823
 20
-274.5532660293
 10
391.7251568598
 20
-270.209167513
 10
391.0504148699
 20
-265.71494594
 10
390.5674692717
 20
-261.0797827473
 10
390.335061648
 20
-257.5822317469
  0
ARC
  5
C0
330
1F
100
AcDbEntity
  8
0
  6
Continuous
 62
     7
370
    25
100
AcDbCircle
 10
599.6711120903
 20
-262.962435254
 30
0.0
 40
172.9819607612842
100
AcDbArc
 50
134.9853355986
 51
165.0200409341
  0
ENDSEC
  0
SECTION
  2
OBJECTS
  0
DICTIONARY
  5
C
330
0
100
AcDbDictionary
281
     1
  3
ACAD_GROUP
350
D
  3
ACAD_LAYOUT
350
1A
  3
ACAD_MLINESTYLE
350
17
  3
ACAD_PLOTSETTINGS
350
19
  3
ACAD_PLOTSTYLENAME
350
E
  3
ACAD_SCALELIST
350
47
  0
DICTIONARY
  5
D
102
{ACAD_REACTORS
330
C
102
}
330
C
100
AcDbDictionary
281
     1
  0
DICTIONARY
  5
1A
102
{ACAD_REACTORS
330
C
102
}
330
C
100
AcDbDictionary
281
     1
  3
Layout1
350
1E
  3
Layout2
350
26
  3
Model
350
22
  0
DICTIONARY
  5
17
102
{ACAD_REACTORS
330
C
102
}
330
C
100
AcDbDictionary
281
     1
  3
Standard
350
18
  0
DICTIONARY
  5
19
102
{ACAD_REACTORS
330
C
102
}
330
C
100
AcDbDictionary
281
     1
  0
ACDBDICTIONARYWDFLT
  5
E
102
{ACAD_REACTORS
330
C
102
}
330
C
100
AcDbDictionary
281
     1
  3
Normal
350
F
100
AcDbDictionaryWithDefault
340
F
  0
DICTIONARY
  5
47
102
{ACAD_REACTORS
330
C
102
}
330
C
100
AcDbDictionary
281
     1
  3
A0
350
48
  3
A1
350
49
  3
A2
350
4A
  3
A3
350
4B
  3
A4
350
4C
  3
A5
350
4D
  3
A6
350
4E
  3
A7
350
4F
  3
A8
350
50
  3
A9
350
51
  3
B0
350
52
  3
B1
350
53
  3
B2
350
54
  3
B3
350
55
  3
B4
350
56
  3
B5
350
57
  3
B6
350
58
  3
B7
350
59
  3
B8
350
5A
  3
B9
350
5B
  3
C0
350
5C
  3
C1
350
5D
  3
C2
350
5E
  3
C3
350
5F
  3
C4
350
60
  3
C5
350
61
  3
C6
350
62
  3
C7
350
63
  3
C8
350
64
  3
C9
350
65
  3
D0
350
66
  3
D1
350
67
  3
D2
350
68
  0
LAYOUT
  5
1E
102
{ACAD_REACTORS
330
1A
102
}
330
1A
100
AcDbPlotSettings
  1

  2
none_device
  4

  6

 40
0.0
 41
0.0
 42
0.0
 43
0.0
 44
0.0
 45
0.0
 46
0.0
 47
0.0
 48
0.0
 49
0.0
140
0.0
141
0.0
142
1.0
143
1.0
 70
   688
 72
     1
 73
     0
 74
     5
  7

 75
    16
147
1.0
148
0.0
149
0.0
100
AcDbLayout
  1
Layout1
 70
     1
 71
     1
 10
0.0
 20
0.0
 11
420.0
 21
297.0
 12
0.0
 22
0.0
 32
0.0
 14
1.0000000000E+20
 24
1.0000000000E+20
 34
1.0000000000E+20
 15
-1.0000000000E+20
 25
-1.0000000000E+20
 35
-1.0000000000E+20
146
0.0
 13
0.0
 23
0.0
 33
0.0
 16
1.0
 26
0.0
 36
0.0
 17
0.0
 27
1.0
 37
0.0
 76
     0
330
1B
  0
LAYOUT
  5
26
102
{ACAD_REACTORS
330
1A
102
}
330
1A
100
AcDbPlotSettings
  1

  2
none_device
  4

  6

 40
0.0
 41
0.0
 42
0.0
 43
0.0
 44
0.0
 45
0.0
 46
0.0
 47
0.0
 48
0.0
 49
0.0
140
0.0
141
0.0
142
1.0
143
1.0
 70
   688
 72
     1
 73
     0
 74
     5
  7

 75
    16
147
1.0
148
0.0
149
0.0
100
AcDbLayout
  1
Layout2
 70
     1
 71
     2
 10
0.0
 20
0.0
 11
0.0
 21
0.0
 12
0.0
 22
0.0
 32
0.0
 14
0.0
 24
0.0
 34
0.0
 15
0.0
 25
0.0
 35
0.0
146
0.0
 13
0.0
 23
0.0
 33
0.0
 16
1.0
 26
0.0
 36
0.0
 17
0.0
 27
1.0
 37
0.0
 76
     0
330
23
  0
LAYOUT
  5
22
102
{ACAD_REACTORS
330
1A
102
}
330
1A
100
AcDbPlotSettings
  1

  2
none_device
  4
Letter_(8.50_x_11.00_Inches)
  6

 40
6.35
 41
6.35
 42
6.35000508
 43
6.35000508
 44
215.9
 45
279.4
 46
0.0
 47
0.0
 48
0.0
 49
0.0
140
0.0
141
0.0
142
1.0
143
1.0
 70
  1712
 72
     1
 73
     0
 74
     0
  7

 75
     0
147
1.0
148
0.0
149
0.0
100
AcDbLayout
  1
Model
 70
     1
 71
     0
 10
0.0
 20
0.0
 11
279.4
 21
215.9
 12
0.0
 22
0.0
 32
0.0
 14
0.0
 24
0.0
 34
0.0
 15
279.4
 25
215.9
 35
0.0
146
0.0
 13
0.0
 23
0.0
 33
0.0
 16
1.0
 26
0.0
 36
0.0
 17
0.0
 27
1.0
 37
0.0
 76
     0
330
1F
331
29
  0
MLINESTYLE
  5
18
102
{ACAD_REACTORS
330
17
102
}
330
17
100
AcDbMlineStyle
  2
Standard
 70
     0
  3

 62
   256
 51
90.0
 52
90.0
 71
     2
 49
0.5
 62
   256
  6
BYLAYER
 49
-0.5
 62
   256
  6
BYLAYER
  0
ACDBPLACEHOLDER
  5
F
102
{ACAD_REACTORS
330
E
102
}
330
E
  0
SCALE
  5
48
102
{ACAD_REACTORS
330
47
102
}
330
47
100
AcDbScale
 70
     0
300
1:1
140
1.0
141
1.0
290
     1
  0
SCALE
  5
49
102
{ACAD_REACTORS
330
47
102
}
330
47
100
AcDbScale
 70
     0
300
1:2
140
1.0
141
2.0
290
     0
  0
SCALE
  5
4A
102
{ACAD_REACTORS
330
47
102
}
330
47
100
AcDbScale
 70
     0
300
1:4
140
1.0
141
4.0
290
     0
  0
SCALE
  5
4B
102
{ACAD_REACTORS
330
47
102
}
330
47
100
AcDbScale
 70
     0
300
1:5
140
1.0
141
5.0
290
     0
  0
SCALE
  5
4C
102
{ACAD_REACTORS
330
47
102
}
330
47
100
AcDbScale
 70
     0
300
1:8
140
1.0
141
8.0
290
     0
  0
SCALE
  5
4D
102
{ACAD_REACTORS
330
47
102
}
330
47
100
AcDbScale
 70
     0
300
1:10
140
1.0
141
10.0
290
     0
  0
SCALE
  5
4E
102
{ACAD_REACTORS
330
47
102
}
330
47
100
AcDbScale
 70
     0
300
1:16
140
1.0
141
16.0
290
     0
  0
SCALE
  5
4F
102
{ACAD_REACTORS
330
47
102
}
330
47
100
AcDbScale
 70
     0
300
1:20
140
1.0
141
20.0
290
     0
  0
SCALE
  5
50
102
{ACAD_REACTORS
330
47
102
}
330
47
100
AcDbScale
 70
     0
300
1:30
140
1.0
141
30.0
290
     0
  0
SCALE
  5
51
102
{ACAD_REACTORS
330
47
102
}
330
47
100
AcDbScale
 70
     0
300
1:40
140
1.0
141
40.0
290
     0
  0
SCALE
  5
52
102
{ACAD_REACTORS
330
47
102
}
330
47
100
AcDbScale
 70
     0
300
1:50
140
1.0
141
50.0
290
     0
  0
SCALE
  5
53
102
{ACAD_REACTORS
330
47
102
}
330
47
100
AcDbScale
 70
     0
300
1:100
140
1.0
141
100.0
290
     0
  0
SCALE
  5
54
102
{ACAD_REACTORS
330
47
102
}
330
47
100
AcDbScale
 70
     0
300
2:1
140
2.0
141
1.0
290
     0
  0
SCALE
  5
55
102
{ACAD_REACTORS
330
47
102
}
330
47
100
AcDbScale
 70
     0
300
4:1
140
4.0
141
1.0
290
     0
  0
SCALE
  5
56
102
{ACAD_REACTORS
330
47
102
}
330
47
100
AcDbScale
 70
     0
300
8:1
140
8.0
141
1.0
290
     0
  0
SCALE
  5
57
102
{ACAD_REACTORS
330
47
102
}
330
47
100
AcDbScale
 70
     0
300
10:1
140
10.0
141
1.0
290
     0
  0
SCALE
  5
58
102
{ACAD_REACTORS
330
47
102
}
330
47
100
AcDbScale
 70
     0
300
100:1
140
100.0
141
1.0
290
     0
  0
SCALE
  5
59
102
{ACAD_REACTORS
330
47
102
}
330
47
100
AcDbScale
 70
     0
300
1/128" = 1'-0"
140
0.0078125
141
12.0
290
     0
  0
SCALE
  5
5A
102
{ACAD_REACTORS
330
47
102
}
330
47
100
AcDbScale
 70
     0
300
1/64" = 1'-0"
140
0.015625
141
12.0
290
     0
  0
SCALE
  5
5B
102
{ACAD_REACTORS
330
47
102
}
330
47
100
AcDbScale
 70
     0
300
1/32" = 1'-0"
140
0.03125
141
12.0
290
     0
  0
SCALE
  5
5C
102
{ACAD_REACTORS
330
47
102
}
330
47
100
AcDbScale
 70
     0
300
1/16" = 1'-0"
140
0.0625
141
12.0
290
     0
  0
SCALE
  5
5D
102
{ACAD_REACTORS
330
47
102
}
330
47
100
AcDbScale
 70
     0
300
3/32" = 1'-0"
140
0.09375
141
12.0
290
     0
  0
SCALE
  5
5E
102
{ACAD_REACTORS
330
47
102
}
330
47
100
AcDbScale
 70
     0
300
1/8" = 1'-0"
140
0.125
141
12.0
290
     0
  0
SCALE
  5
5F
102
{ACAD_REACTORS
330
47
102
}
330
47
100
AcDbScale
 70
     0
300
3/16" = 1'-0"
140
0.1875
141
12.0
290
     0
  0
SCALE
  5
60
102
{ACAD_REACTORS
330
47
102
}
330
47
100
AcDbScale
 70
     0
300
1/4" = 1'-0"
140
0.25
141
12.0
290
     0
  0
SCALE
  5
61
102
{ACAD_REACTORS
330
47
102
}
330
47
100
AcDbScale
 70
     0
300
3/8" = 1'-0"
140
0.375
141
12.0
290
     0
  0
SCALE
  5
62
102
{ACAD_REACTORS
330
47
102
}
330
47
100
AcDbScale
 70
     0
300
1/2" = 1'-0"
140
0.5
141
12.0
290
     0
  0
SCALE
  5
63
102
{ACAD_REACTORS
330
47
102
}
330
47
100
AcDbScale
 70
     0
300
3/4" = 1'-0"
140
0.75
141
12.0
290
     0
  0
SCALE
  5
64
102
{ACAD_REACTORS
330
47
102
}
330
47
100
AcDbScale
 70
     0
300
1" = 1'-0"
140
1.0
141
12.0
290
     0
  0
SCALE
  5
65
102
{ACAD_REACTORS
330
47
102
}
330
47
100
AcDbScale
 70
     0
300
1-1/2" = 1'-0"
140
1.5
141
12.0
290
     0
  0
SCALE
  5
66
102
{ACAD_REACTORS
330
47
102
}
330
47
100
AcDbScale
 70
     0
300
3" = 1'-0"
140
3.0
141
12.0
290
     0
  0
SCALE
  5
67
102
{ACAD_REACTORS
330
47
102
}
330
47
100
AcDbScale
 70
     0
300
6" = 1'-0"
140
6.0
141
12.0
290
     0
  0
SCALE
  5
68
102
{ACAD_REACTORS
330
47
102
}
330
47
100
AcDbScale
 70
     0
300
1'-0" = 1'-0"
140
12.0
141
12.0
290
     0
  0
ENDSEC
  0
EOF
